CCC Show

music lyrics and cords for show
 
HomeCalendarFAQSearchRegisterLog in

Share | 
 

 bass JUST A GIRL - No Doubt

View previous topic View next topic Go down 
AuthorMessage
Admin
Admin


Posts : 40
Join date : 2012-04-01

PostSubject: bass JUST A GIRL - No Doubt   Sat Jun 16, 2012 12:05 am


http://tabs.ultimate-guitar.com/n/no_doubt/just_a_girl_ver2_btab.htm

-------------------------------------------------------------------------------
JUST A GIRL - No Doubt
-------------------------------------------------------------------------------

Tabbed By : Madkat / Daniel.S
Bassist: Tony Kanal
Tuning: Drop D


Verse 1
G||-----------14--------|-------|-----------14--------|----------------------|
D||---------------------|-------|---------------------|---------------12\----|
A||---------------------|-------|---------------------|----------------------|
D||---------------------|-------|---------------------|----------------------|

G||---------------------|---------------------|---------------------|
D||---------------------|---------------------|---------------------|
A||---------------------|---------------------|---------------------|
D||--0--0---------------|--0--0---------------|--0--0---------------|

G||------------------------|------------------------|-------------------/11----|
D||-----------------12\----|------------------------|--------------------------|
A||------------------------|------------------------|--------------------------|
D||--0--0------------------|--0--0-------0--0-------|--0--0-------0--0---------|

G||------------------------|--------------------------||
D||------------------------|--------------------------||
A||------------------------|-----------5-----5-----7--||
D||--0--0-------0--0-------|--0--0--7-----7-----7-----||


Chorus x2
G||--------------------------------|--------------------------------|
D||*-------------------------------|--------------------------------|
A||*-------7h-9-9-9-------5h-7-7-7-|--------3h-5-5-5-------5h-7-7-7-|
D||--9--9-----------7--7-----------|--5--5-----------7--7-----------|

G||--------------------------------|------------------------------||
D||--------------------------------|-----------------------------*||
A||--------7h-9-9-9-------5h-7-7-7-|----------3-5-5-7h-9--7-5--7-*||
D||--9--9-----------7--7-----------|--5--5--x---------------------||


Post-Chorus
G||----------------------------------|----------------------------------||
D||----------------------------------|----------------------------------||
A||----------------------------------|--3-3-3-3-3-3-3-3-3-3-3-3-3-3-3-3-||
D||--5-5-5-5-5-5-5-5-5-5-5-5-5-5-5-5-|----------------------------------||


Verse 2
G||-----------14--------|----------------------|---------------------|
D||---------------------|---------------12\----|---------------------|
A||---------------------|----------------------|---------------------|
D||---------------------|----------------------|--0--0---------------|

G||---------------------|---------------------|------------------------|
D||---------------------|---------------------|-----------------12\----|
A||---------------------|---------------------|------------------------|
D||--0--0---------------|--0--0---------------|--0--0------------------|

G||----------------------------|----------------------------|
D||-----5----------------------|-----5----------------------|
A||--5---------5------5-----7--|--5---------5------5-----7--|
D||--------7-7----7-7----7-----|--------7-7----7-7----7-----|

G||----------------------------|----------------------------||
D||-----5----------------------|------5---------------------||
A||--5---------5------5-----7--|--5-5--------5-----5-----7--||
D||--------7-7----7-7----7-----|---------7-7----7-----7-----||


Chorus x3
G||--------------------------------|--------------------------------|
D||*-------------------------------|--------------------------------|
A||*-------7h-9-9-9-------5h-7-7-7-|--------3h-5-5-5-------5h-7-7-7-|
D||--9--9-----------7--7-----------|--5--5-----------7--7-----------|

G||--------------------------------|------------------------------||
D||--------------------------------|-----------------------------*||
A||--------7h-9-9-9-------5h-7-7-7-|----------3-5-5-7h-9--7-5--7-*||
D||--9--9-----------7--7-----------|--5--5--x---------------------||


Post-Chorus
G||----------------------------------|----------------------------------||
D||----------------------------------|----------------------------------||
A||----------------------------------|--3-3-3-3-3-3-3-3-3-3-3-3-3-3-3-3-||
D||--5-5-5-5-5-5-5-5-5-5-5-5-5-5-5-5-|----------------------------------||


Interlude
G||--------------------------|--------------------------||
D||*-------------------------|-------------------------*||
A||*-------------------------|-------------------------*||
D||--9--9--9--9--7--7--7--7--|--5--5--5--5--7--7--7--7--||

G||--------------------------|--------------------------|
D||--------------------------|--------------------------|
A||--------------4--4--4--4--|--5--5--5--5--7--7--7--7--|
D||--9--9--9--7--------------|--------------------------|

G||--------------------------|--------------------------||
D||--------------------------|--------------------------||
A||--------------------------|--------------------------||
D||--9--9--9--9--7--7--7--7--|--5--5--5--5--7--7--7--7--||


Post-Chorus
G||----------------------------------|----------------------------------||
D||----------------------------------|----------------------------------||
A||----------------------------------|--3-3-3-3-3-3-3-3-3-3-3-3-3-3-3-3-||
D||--5-5-5-5-5-5-5-5-5-5-5-5-5-5-5-5-|----------------------------------||


Verse 3
G||-----------14--------|-------------------|-----------14--------|
D||---------------------|-------------------|---------------------|
A||---------------------|-------------------|---------------------|
D||---------------------|-------------------|---------------------|


G||----------------------|---------------------|---------------------|
D||----------------------|---------------------|---------------------|
A||---------------12\----|---------------------|---------------------|
D||----------------------|--0--0---------------|--0--0---------------|


G||---------------------|--------------------------||
D||---------------------|--------------------------||
A||---------------------|-----------5-----5-----7--||
D||--0--0---------------|--0--0--7-----7-----7-----||


Chorus x4
G||--------------------------------|--------------------------------|
D||*-------------------------------|--------------------------------|
A||*-------7h-9-9-9-------5h-7-7-7-|--------3h-5-5-5-------5h-7-7-7-|
D||--9--9-----------7--7-----------|--5--5-----------7--7-----------|

G||--------------------------------|------------------------------||
D||--------------------------------|-----------------------------*||
A||--------7h-9-9-9-------5h-7-7-7-|----------3-5-5-7h-9--7-5--7-*||
D||--9--9-----------7--7-----------|--5--5--x---------------------||


Post-Chorus
G||----------------------------------|----------------------------------||
D||----------------------------------|----------------------------------||
A||----------------------------------|--3-3-3-3-3-3-3-3-3-3-3-3-3-3-3-3-||
D||--5-5-5-5-5-5-5-5-5-5-5-5-5-5-5-5-|----------------------------------||


Outro
G||---------------------------------|------------------------------------------|
D||---------------------------------|------------------------------------------|
A||---------------------------------|-3-3-3-3-3-3-3-3/-15-15-15-15-15-15-15-15-|
D||-5-5-5-5-5-5-5-5-5-5-5-5-5-5-5-5-|------------------------------------------|

G||------------------------|---------------------------|---------------------||
D||------------------------|---------------------------|---------------------||
A||------------------------|---------3--3--3-----3--3--|--3----3-------------||
D||--5----------3-5-3-5----|--3-5-3-----------5--------|------------5--------||

| / slide up
| \ slide down
| h hammer-on
| p pull-off
| ~ vibrato
| + harmonic
| x Mute note
Back to top Go down
http://cccshow.forumotion.com
 
bass JUST A GIRL - No Doubt
View previous topic View next topic Back to top 
Page 1 of 1
 Similar topics
-
» Marvel Universe 2 packs (Cyclops/Marvel Girl - Wolverine Sabretooth)
» What you date a girl with manhands?
» Just for gamer Girl :D
» Girl on Girl action - DE vs Sisters 1500p (Pic Heavy)
» The 0 Girl

Permissions in this forum:You cannot reply to topics in this forum
CCC Show :: Music :: Just a Girl-
Jump to: