CCC Show

music lyrics and cords for show
 
HomeCalendarFAQSearchRegisterLog in

Share | 
 

 Rapture Bass tab

View previous topic View next topic Go down 
AuthorMessage
Admin
Admin


Posts : 40
Join date : 2012-04-01

PostSubject: Rapture Bass tab   Thu Jun 14, 2012 9:34 pm

Ratings
This Rapture Bass tab is rated:
Quality: ; 3.67 out of 5. Rated 3 times.

http://www.911tabs.com/link/?3699009

standard tuning


Main riff
G|-------------------------|-----------------------|
D|-------------------4-5---|-----------------4-2---|
A|------------4-5----------|-----------4-5---------|
E|-0--0---5-7--------------|-0--0--5-7-------------|


Riff 2
G|--------------------------------------------------|
D|-------------------2------------------------------|
A|-------------3-----------------------3------------|
E|-1-----5-----------------1-----5---------3----3-2-|


At the end, over Frank Infante's solo, theres this bit:
G|-----------------------------------------------|
D|-----------------------------------------------|
A|-------3-----5-----7-----------3-----5---------|
E|-5-----------------------5---------------3-----|

G|-------------------------------------------------|
D|-------------------------------------------------|
A|-------3-----5-----7-----------3-----5-----------|
E|-5-----------------------5---------------3---3-2-|



Tabbed by Matt Nikic
Back to top Go down
http://cccshow.forumotion.com
 
Rapture Bass tab
View previous topic View next topic Back to top 
Page 1 of 1
 Similar topics
-
» Paano ba gumawa ng sounds na gumagapang ang bass?
» simple Subwoofer control circuit
» On "Deamons" in Commorragh

Permissions in this forum:You cannot reply to topics in this forum
CCC Show :: Music :: Rapture-
Jump to: