CCC Show

music lyrics and cords for show
 
HomeCalendarFAQSearchRegisterLog in

Share | 
 

 Bass tab Barracuda

View previous topic View next topic Go down 
AuthorMessage
Admin
Admin


Posts : 40
Join date : 2012-04-01

PostSubject: Bass tab Barracuda    Sun May 27, 2012 7:31 am

Artist: Heart
Piece: Barracuda
Instrument: Bass
Submitter: esuvee
Tab provided by tTabs


This Barracuda Bass tab is rated:
Quality: 3 stars; 3.2 out of 5. Rated 10 times.

It has been viewed 5087 times.


*=let note ring

Intro 1: guitar only.

Intro 2: Riff A:
--------------------------------------------------------------------------
--------------------------------------------------------------------------
--------------------------------------------------------------------------
-5(s)-0-0-0-0-0-0-0-0-0-0-0-0-0-0-0-0-0-0-0-0-0-1-2-----------------------

Riff B: 2xs
--------------------------------------------------------------------------
--------------------------------------------------------------------------
--------------------------------------------------------------------------
-0-0-0-0-0-0-0-0-0-0-0-0-0-0-0-0-0-0-0-0-1-2-2-2-2-2-2-2-2----------------

Verse: 2xs
--------------------------------------------------------------------------
-----------------------------------------------10*------------------------
--------------------------------------------------------------------------
-0-0-0-0-0-0-0-0-0-0-0-0-0-0-0-0--0-0-0-0-0-0-----------------------------

--------------------------------------------------------------------------
-10-9-7-------------------------------------------------------------------
--------10----------------------------------------------------------------
-----------0-0-0-0-0-0-0-0-0-0-0-0-0-0-0----------------------------------

Chorus 1:
--------------------------------------------------------------------------
-10-9-7----------2--------------------------------------------------------
-------------3-5---5-3----------------------------------------------------
-------0-0-0-----------5-3-0-0-0------------------------------------------

----------12---------------12---------------------------------------------
----12-14----14-----14-14-----14------------------------------------------
-5*-------------12*--------------12---------------------------------------
--------------------------------------------------------------------------

(Riff B 2xs)
(Verse)

Chorus 2:
--------------------------------------------------------------------------
-10-9-7-----------2-------------------------------------------------------
--------------3-5---5-3---------------------------------------------------
--------0-0-0-----------5-3-0-0-0-----------------------------------------

-----14-12----------------------------------------------------------------
-----------14-12----------------------------------------------------------
-5*--------------12-------------------------------------------------------
--------------------------------------------------------------------------

Riff C:
--------------------------------------------------------------------------
--------------------------------------------------------------------------
----------------------------------------3(h)5-----------------------------
-0-0-0-0-0-0-0-0-0-0-0-0-0-0-0-0--3(h)5-----------------------------------

Bridge:
--------------------------------------------------------------------------
-10-9-7-------------------------------------------------------------------
--------10-7-10-9-7-------9-10-9-10-9-7-----------------------------------
--------------------5-7-9-------------------------------------------------

(Riff C)
(Bridge)

Riff D:
--------------------------------------------------------------------------
--------------------------------------------------------------------------
--------------------------------------------------------------------------
-0-0-0-0-0-0-0-0-0-0-0-0-0-0-0--2-3-5-------------------------------------

(Bridge)
(Riff D)
(Bridge)
(Riff D)

Chorus 3:
--------------------------------------------------------------------------
-10-9-7-----------2-------------------------------------------------------
--------------3-5---5-3---------------------------------------------------
--------0-0-0------------5-3-0-0-0----------------------------------------

----14-12-----------------------------------------------------------------
----------14-12-----------------------------------------------------------
-5*-------------15-14-12--------------------------------------------------
--------------------------------------------------------------------------

Riff E: (Basically an open E string repeatedly)
--------------------------------------------------------------------------
--------------------------------------------------------------------------
--------------------------------------------------------------------------
-0-0-0-0-0-0-0-0-0-0-0-0-0-0-0-0-0-0-0-0-0-0-0-0-0-0-0-0-0-0-0-0-0-0-0-0-- etc.

Riff F: (8xs)
--------------------------------------------------------------------------
--------------------------------------------------------------------------
-----------5(h)7(p)5------------------------------------------------------
-0-0-0-0-0-----------8----------------------------------------------------

Riff G: (2 or 3xs)
--------------------------------------------------------------------------
--------------------------------------------------------------------------
-----------------2(h)3(p)2(h)3--------------------------------------------
-0-0-0-0-0-0-0------------------------------------------------------------

Riff H: (a few times)
--------------------------------------------------------------------------
-------2------------------------------------------------------------------
---2-5---5---2-3-2-3------------------------------------------------------
-0---------0--------------------------------------------------------------

(Just do variations of the same themes)

Riff I: (a few times)
--------------------------------------------------------------------------
-------2-----2------------------------------------------------------------
---2-5-----5---5-3--------------------------------------------------------
-0-------0----------------------------------------------------------------

Then use this to wrap that part up, do it very fast:
-------------------------------------------------------------------------
-------2-----------------------------------------------------------------
---2-5---5-3-2-----------------------------------------------------------
-0-------------5-3-5-3-0-------------------------------------------------

Ending:
(Riff D 5xs)
Back to top Go down
http://cccshow.forumotion.com
 
Bass tab Barracuda
View previous topic View next topic Back to top 
Page 1 of 1
 Similar topics
-
» Paano ba gumawa ng sounds na gumagapang ang bass?
» simple Subwoofer control circuit
» X-Bass Booster Using Transistor by Pinoy_Tech ng Elab ^_^

Permissions in this forum:You cannot reply to topics in this forum
CCC Show :: Music :: Barracuda-
Jump to: