CCC Show

music lyrics and cords for show
 
HomeCalendarFAQSearchRegisterLog in

Share | 
 

 Instrument: Bass

View previous topic View next topic Go down 
AuthorMessage
Admin
Admin


Posts : 40
Join date : 2012-04-01

PostSubject: Instrument: Bass   Thu Jun 14, 2012 9:04 pm

Piece: Always On The Run
Instrument: Bass
Tab provided by tTabs

Ratings
This Always On The Run Bass tab is rated:
Quality: ; 4.87 out of 5. Rated 15 times.

http://www.911tabs.com/link/?3656999

Lenny Kravitz – Always On The Run
Tabbed by: sinniecoyote


Intro
G|---121211--7-9---------------------------------|
D|-12--------------------------------------------|
A|----------5------------------5-5h7-------------|
E|---------------0--00--0--00-0-----0--00--0--00-|

Verse 1
G|-----------------------------------------------------------------------------------|
D|-----------------------------------------------------------------------------------|
A|--5-5-7----5-7--5-7--5-7-----------5-7--5-7---5-7-----------5-7--5-7--5-7----------|
E|-0------0-----------------0-3-330-----------0------0-3-330-----------------0-3-330-|

G|----------------------------------------------------------------|
D|----------------------------------------------------------------|
A|-5-7--5-7---5-7-----------5-7--5-7--5-7-----------5-7--5-7--5-7-|
E|----------0------0-3-3300----------------0-3-330----------------|

Chorus 1 (but I’m always on the run...)
G|----------------------------------------------------------/14-12---------------|
D|-------------------------------------------------------------------------------|
A|---------2345---4567--------------2345-----------------------------------------|
E|-02-2233-----55------00--00--1033----55-543200--00--0--00--------0--00--0--00-|

Verse 2
G|------------------------------------------------------------------------------------|
D|------------------------------------------------------------------------------------|
A|--5-5-7----5-7--5-7--5-7-----------5-7--5-7---5-7------------5-7---57--5-7----------|
E|-0------0-----------------0-3-330-----------0------0-3-3300-----------------0-3-330-|

G|----------------|
D|----------------|
A|-5-7--5-7---5-7-|
E|----------0-----|

Chorus 2
G|-----------------------------------------------------------/14-12--------------|
D|-------------------------------------------------------------------------------|
A|---------2345---4567--------------2345-----------------------------------------|
E|-02-2233-----55-----00--00--1033-----55-543200--00--0--00--------0--00--0--00-|

Solo Guitar Part
G|-----------------------------------------------------------------|
D|------------------------5h7-5h7-5h7-5h75-------------------------|
A|----------------------------------------7575-5-------------------|
E|-03-4-5-5-5-5-5-5-5-5-5---------------------8-875300--00--00--00-|

G|-----------------------------------------------------------------------|
D|------------------------7h9-7h9-7h9-7h9-7h97---------------------------|
A|----------------6-7-8-9---------------------9797--7--------------------|
E|-04-5-6-7-7-7-7---------------------------------10-10910700--00--0--00-|

Verse 3
G|---------------/14-12-------------------------------------------------------------------|
D|----------------------------------------------------------------------------------------|
A|--5-5h7------------------------5-5-7----5-7--5-7--5-7-----------5-7--5-7--5-7-----------|
E|-0------0-0--00--------0--00--0------0-----------------0-3-330-----------------0-3-3300-|

G|------------------------------------------|
D|------------------------------------------|
A|-5-7--5-7---5-7------------5-7--5-7---5-7-|
E|----------0------0-3-3300-----------0-----|

Chorus 3
G|--------------------------------------------------------------------------/14-12-|
D|--------------------------------------5h75---------------------------------------|
A|---------2345---4567-----------2345-------75-------------2345---4567-------------|
E|-02-2233-----55-----00--00--33-----55-------00--00-01233-----55-----00--00-------|

G|------------------------------------------------------------------------|
D|------------------------------------------------------------------------|
A|---------------0-----5-7--5-7---5-7------------5-7---57---5-7-----------|
E|-33-----55----0--00-----------0------0-3-3300------0----0------0-3-3300-|

G|--------------------------------------------------------------------------|
D|--------------------------------------------7875--------------------------|
A|-5-7---57---5-7------------5-7---57---5-7--7----5-7-----57---5-7----------|
E|-----0----0------0-3-3300------0----0-----------------0----0----02-3-3300-|

G|------------------14p12----------------------------------|
D|----------------14-----14-------------------------------|
A|-5-7---57---5-7----------------5-7---57---5-7---55555-7--|
E|-----0----0----------------00------0----0------0---------|
Back to top Go down
http://cccshow.forumotion.com
 
Instrument: Bass
View previous topic View next topic Back to top 
Page 1 of 1
 Similar topics
-
» Paano ba gumawa ng sounds na gumagapang ang bass?
» simple Subwoofer control circuit
» What instrument do you play
» Anyone interested in helping build an instrument panel?

Permissions in this forum:You cannot reply to topics in this forum
CCC Show :: Music :: Always On The Run-
Jump to: