CCC Show

music lyrics and cords for show
 
HomeCalendarFAQSearchRegisterLog in

Share | 
 

 tab from john

View previous topic View next topic Go down 
AuthorMessage
Admin
Admin


Posts : 40
Join date : 2012-04-01

PostSubject: tab from john   Wed Aug 08, 2012 11:26 am


No Doubt – I’m just a Girl Guitar

((For:
Bm A G
e|-7------5------3-|
B|-7------5------3-|
G|-8------6------4-|
D|-9------7------5-|
A|-9------7------5-|
E|-7------5------3-| ))


INTRO
e|---------------------------|---------------------------|
b|---------------------------|---------------------------|
g|----2----------------------|-----2---------------------|
d|--0---------0------0-----2-|--0---------0-----0----2---|
a|--------2-2----1-1----0----|--------2-2---1-1---0------|
e|---------------------------|---------------------------| x12 (You play one bar 12 times)


Take this pink ribbon off my eyes
I'm exposed
And it's no big surprise
Don't you think I know
Exactly where I stand
This world is forcing me
To hold your hand

Bm A G A
'Cause I am just a girl, little ol' me
Bm A G A
Don't let me out of your sight
Bm A G A
I'm just a girl, all pretty and petite
Bm A G A
So don't let me have any rights
G C (the G and C are palm muted)
Oh...I've had it up to here!

INTRO x10
(while gwen sings:)
The moment that I step outside
So many reasons
For me to run and hide
I can't do the little things
I hold so dear
'Cause it's all those little things
That I fear

Bm A
'Cause I am just a girl
G A
I'd rather not be
Bm A
'Cause they won't let me drive
G A
Late at night
Bm A
I'm just a girl
G A
Guess I'm some kind of freak
Bm A
'Cause they all sit and stare
G A
With their eyes
Bm A
I'm just a girl
G A
Take a good look at me
Bm A G A
Just your typical prototype
G C (the G and C are palm muted)
Oh...I've had it up to here!


Solo:

e|----7-10-9-7---------------7-10-9-7---------------|-
b|--7----------7--------7--7----------7--------7----|-
g|.--------------9--7-9-----------------9--7-9-----.|-
d|.----------------------------------------------9-.|-
a|--------------------------------------------------|-
e|--------------------------------------------------|- x2


G C (the G and C are palm muted)
Oh...I'm I making myself clear! x1

INTRO x8
(while gwen sings:)
I'm just a girl
I'm just a girl in the world...
That's all that you'll let me be!


Bm A G A
I'm just a girl, living in captivity
Bm
Your rule of thumb
A G A
Makes me worry some
Bm A G A
I'm just a girl, what's my destiny?
Bm
What I've succumbed to
A G A
Is making me numb
Bm A G A
I'm just a girl, my apologies (2nd guitar plays solo again)
Bm A G A
What I've become is so burdensome
Bm A G A
I'm just a girl, lucky me
Bm A G A
Twiddle-dum there's no comparison
G C
Oh...I've had it up to!
G C
Oh...I've had it up to!
G C Bm
Oh...I've had it up to here!







bass

h h w h h H e e H e e q
|-----7--|-----|-----7--|-----7\0--||---------r---||--7\0--------r--------------
|--7-----|--7--|--7-----|--7-------||*--0--0--e--*||-------0--0--e--------------
|--------|-----|--------|----------||*--------s--*||-------------s--x--x--x-----
|--------|-----|--------|----------||---------t---||-------------t--------------


q e e q s s E e e q q e e e e e e
r--|--------r-----------r--|-------------r-----------r--|-----------------------
e--|--0--0--e-----------e--|-------0--0--e-----------e--|--0--0-----0-----0-----
s--|--------s--x--x--x--s--|--7h9--------s--x--x--x--s--|--------2-----1--------
t--|--------t-----------t--|-------------t-----------t--|-----------------------


e e CHORUS q s s s s q s s s s q s s s s q s s s s
----------------||------------------------------|-------------------------------
---2------------||*-----2h4--2p0-----0h2--0-----|------------------0h2--0-------
0---------------||*--2------------0----------0--|-----3h5--3p0--0----------0----
----------------||------------------------------|--3----------------------------


s s s s s s s s s s s s s s s s s s s s s s s
--||-----------r-----------r-----------r-----------r--|-----------r-------------
-*||-----------e-----------e-----------e-----------e--|-----------e-------------
h*||-----------s-----------s-----------s-----------s--|--3--3--3--s--3--3--3----
--||--3--3--3--t--3--3--3--t--3--3--3--t--3--3--3--t--|-----------t-------------


s s s s s s s s s h h H e e H
r-----------r-----------r--|-----7--|-----7\0--||---------r---||--7\0--||-------
e-----------e-----------e--|--7-----|--7-------||*--0--0--e--*||-------||*------
s--3--3--3--s--3--3--3--s--|--------|----------||*--------s--*||-------||*------
t-----------t-----------t--|--------|----------||---------t---||-------||-------


q q e e q e e q q q s s s s q s s s s q s
----------------------------||-----||------------------------------|------------
0--0--------0--------0--2--*||-----||*-----2h4--2p0-----0h2--0-----|------------
------2--2-----1--1--------*||-----||*--2------------0----------0--|-----3------
----------------------------||-----||------------------------------|--3---------


s s s q s s s s s s s s s s s s s s s s s s s s
-----------------------||-----------r-----------r-----------r-----------r--|----
------------0h2--0----*||-----------e-----------e-----------e-----------e--|----
h5--3p0--0----------0h*||-----------s-----------s-----------s-----------s--|----
-----------------------||--3--3--3--t--3--3--3--t--3--3--3--t--3--3--3--t--|----


s s s s s s s s s s s s s s s s e e e e e e e e
---------r-----------r-----------r-----------r--||------------------------------
---------e-----------e-----------e-----------e--||*-----------------------------
3--3--3--s--3--3--3--s--3--3--3--s--3--3--3--s--||*--2--2--2--2--0--0--0--0-----
---------t-----------t-----------t-----------t--||------------------------------


e e e e e e e e s s s s s s s s s s s s s s s
|---------------------------||-----------r-----------r-----------r--------------
|--------------------------*||-----------e-----------e-----------e--------------
|--------------0--0--0--0--*||-----------s-----------s-----------s--------------
|--3--3--3--3---------------||--3--3--3--t--3--3--3--t--3--3--3--t--3--3--3-----


s s s s s s s s s s s s s s s s s h h w h h
r--|-----------r-----------r-----------r-----------r--|-----7--|-----|-----7----
e--|-----------e-----------e-----------e-----------e--|--7-----|--7--|--7-------
s--|--3--3--3--s--3--3--3--s--3--3--3--s--3--3--3--s--|--------|-----|----------
t--|-----------t-----------t-----------t-----------t--|--------|-----|----------


H e e H e e e e e e e e q s s s s q
|-----7\0--||---------r---||-----------------------------||---------------------
|--7-------||*--0--0--e--*||--0--0-----0-----0-----2-----||*-----2h4--2p0-------
|----------||*--------s--*||--------2-----1-----0--------||*--2------------0----
|----------||---------t---||-----------------------------||---------------------


s s s s q s s s s q s s s s q s s s s q s s s s q
-----------|-----------------------------||-----------------------------|-------
0h2--0-----|------------------0h2--0----*||-----2h4--2p0-----0h2--0-----|-------
--------0--|-----3h5--3p0--0----------0h*||--2------------0----------0--|-------
-----------|--3--------------------------||-----------------------------|--3----


s s s s s^ s^ s^ q s s s s q s s s s q^ q^ q^ q^ q^ q^ q s
----------2--------|--------------------------------------2--------|------------
-------------4--0--|-----2h4--2p0-----0h2--0-----------0-----4--0--|-----2------
3h5--3p0-----------|--2------------0----------0-----2--------------|--2---------
-------------------|-----------------------------3-----------------|------------


s s s q^ q^ q^ q^ q^ q^ q^ q^ q^ q s s s s q s s s s q s s
---------2--------------------------|-----------------------------|-------------
h4--2p0-----4--0--------0--------2--|-----2h4--2p0-----0h2--0-----|-------------
---------------------2-----0--4-----|--2------------0----------0--|-----3h5-----
------------------3-----------------|-----------------------------|--3----------


s s q s s s s s s s s s s s s s s s s s s s s s
-------------------||------------r-----------r-----------r-----------|----------
--------0h2--0-----||*-----------e-----------e-----------e-----------|----------
3p0--0----------0--||*-----------s-----------s-----------s-----------|--3--3----
-------------------||---3--3--3--t--3--3--3--t--3--3--3--t--3--3--3--|----------


s s s s s s s s s s s s s s E e e Q q E e e
---r-----------r-----------r-----------r---||----------r-----|-------------r----
---e-----------e-----------e-----------e--*||----------e-----|-------------e----
3--s--3--3--3--s--3--3--3--s--3--3--3--s--*||----------s-----|--3--3--4/3--s----
---t-----------t-----------t-----------t---||--3--4/3--t--3--|-------------t----


E w
---|-----|----------------------------------------------------------------------
---|-----|----------------------------------------------------------------------
3--|--2--|----------------------------------------------------------------------
---|-----|----------------------------------------------------------------------

================================================================================
== TABLATURE EXPLANATION ==
================================================================================

---------- ----------
----5h8--- Hammeron ----(Cool--- Ghost Note
---------- ----------
----5p8--- Pulloff ----------

---------- ----------
----5/8--- Slide Up -----x---- Dead Note
---------- ----------
----5\8--- Slide Down ----------

---------- ||------|| Repeat Start & End
----5~~~-- Vibrato ||*----*||
---------- ||*----*||
---------- ||------||

Rhythm:
w = whole note W = dotted whole
h = half note H = dotted half
q = quarter note Q = dotted quarter
e = eighth note E = dotted eighth
s = sixteenth note S = dotted sixteenth
^ = triplet

not as hard as it looks
Back to top Go down
http://cccshow.forumotion.com
 
tab from john
View previous topic View next topic Back to top 
Page 1 of 1
 Similar topics
-
» john canty
» John Hollow Horn >Oglala Lakota
» John Cullen Referees' Tournament (Nov. 19-21) in Ottawa
» Another 3 John Bucksnort Mods
» Secrets of Modern Chess Strategy - John Watson

Permissions in this forum:You cannot reply to topics in this forum
CCC Show :: Music :: Just a Girl-
Jump to: