CCC Show

music lyrics and cords for show
 
HomeCalendarFAQSearchRegisterLog in

Share | 
 

 bass Heart Breaker

View previous topic View next topic Go down 
AuthorMessage
Admin
Admin


Posts : 40
Join date : 2012-04-01

PostSubject: bass Heart Breaker   Fri Jun 15, 2012 11:35 pm

Heart Breaker
Pat Benatar
Transcribed by Yor123@bellsouth.net (Gregg)

http://tabs.ultimate-guitar.com/p/pat_benatar/heartbreaker_btab.htm



Intro 1x
G------------------------------------------||
D-----------------------------------------*||
A-----------------------------------------*||
E--1--1--1--1--1--1--1--1--1--1--1--1--4---||

G---------------------------------------||
D---------------------------------------||
A---------------------------------------||
E---1--1--1--1--1--1--1--1--1--1--1--1--||


Verse
G------------------------------------------------------------------|
D------------------------------------------------------------------|
A---8--8--8--8--8--8--8--8--6--6--6--6--6--6--6--6--4--4--4--4-----|
E------------------------------------------------------------------|


1x
----------------------------------||
---------------------------------*||
---4--4--4--4-----------------6--*||
---------------6--6--6--6--8------||

G-----------------------------------------------------------------------|
D-----------------------------------------------------------------------|
A---8--8--8--8--6--6--6--6----------------------------------------------|
E---------------------------9--9--9--9--9--9--9--9--6--6--6--6--6--6----|


1x
----------------------------------||
---------------------------------*||
---------------------------------*||
---6--6--8--8--8--8--8--8--8--8---||


Chorus 1x Repeat intro
G----------------------------------------||-----------------------|
D---------------------------------------*||-----------------------|
A------------------1--1--3-----4-----3--*||-----------------------|
E---1--1--3--4--4------------------------||-----------------------|


Bridge
G-----------------------------------------------------------------------|
D------3--------------------------3--------6--5--3----------------------|
A---6-----3--------------6--5--6-----3--------------6--4--3-----3--5----|
E------------6--4--3--1-----------------6--------------------6----------|


1x
---------|--------5--------5---|---------------------------------------|
---5--3--|*-------------------*|---------------------------------------|
---------|*-3--3-----3--3-----*|---3--3--3--3--3--3--3--3--3--3--3--3--|
---------|---------------------|---------------------------------------|

G---------------------------------|
D---------------------------------|
A---------------0--1-----4--3--1--|
E---0--1--3--4--------------------|

G------------------------------------------------------------|
D------------------------------------------------------------|
A---------------0--1-----3--3--3--3--3--3--3--3--3--3--3--3--|
E---0--1--3--4-----------------------------------------------|


End
G------------------------------------------------------------|
D------------------------------------------------------------|
A------------------1--1--3--4--4--3--3-----------------------|
E---1--1--3--4--4--------------------------------------------|

G------------------------------------------------------------------|
D*-----------------------------------------------------------------|
A*--------------------------------------------------1--1--1--1-----|
E---1--1--1--1--1--1--1--1--4--4--4--4--4--4--4--4-----------------|


7x
----------------------------||
---------------------------*||
---1--1--1--1--4--4--3--3--*||
----------------------------||
Back to top Go down
http://cccshow.forumotion.com
 
bass Heart Breaker
View previous topic View next topic Back to top 
Page 1 of 1
 Similar topics
-
» Camp Happy Heart!
» Camp Happy Heart Siggy!
» Bleak Heart (Vale poems)
» Traveller's compass - heart of Africa
» My Camp Happy Heart Avii

Permissions in this forum:You cannot reply to topics in this forum
CCC Show :: Music :: Heartbreaker-
Jump to: