CCC Show

music lyrics and cords for show
 
HomeCalendarFAQSearchRegisterLog in

Share | 
 

 Guitar tab Barracuda

View previous topic View next topic Go down 
AuthorMessage
Admin
Admin


Posts : 40
Join date : 2012-04-01

PostSubject: Guitar tab Barracuda    Sun May 27, 2012 7:49 am

http://tinyurl.com/7a4uhzw

Artist: Heart
Piece: Barracuda
Instrument: Guitar
Submitter: citysburning
Tab provided by tTabs
Ratings

This Barracuda Guitar tab is rated:
Quality: 4.5 stars; 4.48 out of 5. Rated 31 times.

It has been viewed 8697 times.
Rate this tablature!

This version of Barracuda by Heart is closer than those ones already posted on this site. I'm not saying it's 100% accurate but it sounds good to me, and I've been watching them play this for a while. There are three guitars going so I'll put in what I think at least two are playing in certain parts. There's no timing (Lots of weird timings in this song) and the strumming isn't perfect but you can figure it all out by listening to the record.
Also...I was reading an article the other day about this song and it says that Roger Fisher says the last "harmonic fight" thingy (as I call it) well he calls it Alien Attack and he puts his guitar up to his amp or something and comes up with those crazy sounds...
b=bend p=pull s=slide sd=slide down v=vibrato
<>= harmonics

Intro:
-------------------------------------------------<12>-----------------
-------------------------------------------------<12>---<5>*----------
-------------------------------------------------<12>---<5>*----------*use whammy bar
-2-2-2-2-2-2-2-2-2-2-2-2-2-2-2-2-------4-5--------------<5>*----------after harmonics
-2-2-2-2-2-2-2-2-2-2-2-2-2-2-2-2-------4-5----------------------------
-0-0-0-0-0-0-0-0-0-0-0-0-0-0-0-0-------2-3--------------------sd------
^make sure you're using harmonics

--------------------------------------------<12>*-----------------------
--------------------------------------------<12>*-----------------------
--------------------------------------------<12>*-----------------------
-2-2-2-2-2-2-2-2-2-2-2-2-2-2-2-2------4-5-------------------------------
-2-2-2-2-2-2-2-2-2-2-2-2-2-2-2-2------4-5-------------------------------
-0-0-0-0-0-0-0-0-0-0-0-0-0-0-0-0------2-3---------------sd--------------

(repeat above 2xs and you can vary the harmonics as you see fit)

Verse: (Guitar 1) 2xs
-------------------------------------------------------------------------
-------------------------------------------------------------------------
--------------------------------------5----------------------------------
2-2-2-2-2-2-2-2-2-2-2-2-2-2-2-2-2-2---5---5-4-2-------2-2-2-2-2----------
2-2-2-2-2-2-2-2-2-2-2-2-2-2-2-2-2-2---3---3-2-0--5----2-2-2-2-2----------
0-0-0-0-0-0-0-0-0-0-0-0-0-0-0-0-0-0--------------3----0-0-0-0-0----------
^etc.etc.

(Guitar 2) 2xs
-------------------------------------------------------------------------
-------------------------------------------------------------------------
-------------------------------------5-----------------------------------
2-2-2-2-2-2-2-2-2-2-2-2-2-2-2-2-2-2--5-------5s7-----2-2-2-2-2-----------
2-2-2-2-2-2-2-2-2-2-2-2-2-2-2-2-2-2--3--5s7--3s5-----2-2-2-2-2-----------
0-0-0-0-0-0-0-0-0-0-0-0-0-0-0-0-0-0-----3s5----------0-0-0-0-0-----------
^etc.
Chorus:
(Guitar 1) (Guitar 2)
--------------------- -------------------------------------
--------------------- -------------------------------------
-5-4-2--------------- --5-4-2---9-9-9----------------------
-5-4-2--2-2-2-------- --5-4-2---9-9-9----------------------
-3-2-0--2-2-2-------- --3-2-0---7-7-7----------------------
--------0-0-0-------- -------------------------------------

(Guitar 1) (Guitar 2)
----------------------2------ -------------------------------------------
----------------------3---2-- -------------------------------------------
----------------------2---2-- -------------------9-9-9----7--------------
-5s7s9s7s5------------0---2-- ---2-4-5-4-2-------9-9-9----7--7-----------
-3s5s7s5s3-7s5-2-2-2------0-- -------------5-3v--7-7-7----5--7-----------
-----------5s3-0-0-0--------- -------------------------------5-----------

----------------------------------------<12>*-------------------------------
----------------------------------------<12>*---<5>*------------------------
----------------------------------------<12>*---<5>*------------------------
-2-2-2-2-2-2-2-2-2-2-2-2-2-2-2-2-2--4-5---------<5>*------------------------ 2xs
-2-2-2-2-2-2-2-2-2-2-2-2-2-2-2-2-2--4-5-------------------------------------
-0-0-0-0-0-0-0-0-0-0-0-0-0-0-0-0-0--2-3-------------------------------------

Over 2nd time add this:
-<12>---------------------------------<12>*-----------------------------------
-----------<12>-----------------------<12>*---<7>*----------------------------
------<7>------------<12>-------------<12>*---<7>*----------------------------
----------------<7>------------<12>-----------<7>*----------------------------
--------------------------<7>-------------------------------------------------
------------------------------------------------------------------------------

Verse 2: same as verse 1 but add this after Ann says "uh huh":
--------------------------------------------------------
--------------------------------------------------------
--------------------------------------------------------
-2p0h2p0h2p0h2p0h2p0------------------------------------
--------------------------------------------------------
--------------------------------------------------------

(Chorus again)

Then... 2xs
-------------------------------------------------------------
-------------------------------------------------------------
-------------------------------------------------------------
-2-2-2-2-2-2-2-2-2-2-2-2-2-2--------5s7----------------------
-2-2-2-2-2-2-2-2-2-2-2-2-2-2---5s7--3s5----------------------
-0-0-0-0-0-0-0-0-0-0-0-0-0-0---3s5---------------------------

Bridge:

(Guitar 1) (Guitar 2) does some picking...sounds good like this:
----------------------------- ---------------------------------------------------
----------------------------- -------5-----------5-5-----------------------------
--5-------------------------- -----5---5-------5-----5---------7--------7-7------
--5---7---------------------- ---5-------5---5---------5-----7--7------7----7----
--3---7---------------------- -3-----------3---------------7------7--7-------7---
------5---------------------- ---------------------------5----------5------------

Right before lead: 2xs
-----------------------------------------------------------------------
-----------------------------------------------------------------------
-----------------------------------------------------------------------
-2-2-2-2-2-2-2-2-2-2-2-2-4-5-7-----------------------------------------
-2-2-2-2-2-2-2-2-2-2-2-2-4-5-7-----------------------------------------
-0-0-0-0-0-0-0-0-0-0-0-0-2-3-5-----------------------------------------

Lead:
--------------14b-15-14-12-s-14-15-17-----------------------------------------
-14b-15-14-12-------------------------14-15-17--------------------------------
------------------------------------------------14-15-16-14---12h14p12--sd----
--------------------------------------------------------------12h14p12--sd----
------------------------------------------------------------------------------
------------------------------------------------------------------------------

--------------12-14-15-14-12-------12-14-15-17-17b-15-17b-15-12---------------
-15b-12----------------------15-12--------------------------------------------
------------------------------------------------------------------------------
---------14v------------------------------------------------------------------
------------------------------------------------------------------------------
------------------------------------------------------------------------------

-15p12h15p12h15p12h15p12h15p12-------------------------------------
---------------------------------10--------------------------------
------------------------------------12-sd--------------------------
-------------------------------------------------------------------
-------------------------------------------------------------------
-------------------------------------------------------------------
^slide down using pick

(Chorus again) add harmonics at the 12th fret after she sings "...wick..."

Strum out an E chord over and over.

This part is two electric guitars having a little harmonic fight. You can make it sound good just by playing around with it but here's what I usually tend to play:
-------<12>*--<7>*----------------------------------------------------------
-<7>*--<12>*--<7>*--<7>-<7>-<7>-<7>---------<12>----------------------------
-<7>*--<12>*--<7>*------------------<7>-----<12>---------<12>---------------
-<7>*----------------------------------<7>--<12>--<7>-----------------------
-----------------------------------------------------<7>------<7>-----------
----------------------------------------------------------------------------

-------------------------<12>------ -----<12>----<12>-----<12>---<12>--------
------------------------------<12>- --15-<12>-14-<12>-----<12>---<12>--------
--------<12>-----<7>--------------- -------------<12>---17----16-<12>--------
-<7>-----------------<7>----------- ----------------------------------------- 2xs
----<7>-----<7>-------------------- -----------------------------------------
----------------------------------- -----------------------------------------


Outro: 5xs
----------------------------------------------------------------
----------------------------------------------------------------
----------------------------------------------------------------
-2-2-2-2-2-2-2-2-2-2-2-2-2-2-2-4-5-7----------------------------
-2-2-2-2-2-2-2-2-2-2-2-2-2-2-2-4-5-7----------------------------
-0-0-0-0-0-0-0-0-0-0-0-0-0-0-0-2-3-5----------------------------

Tabbed by: Citysburning
Back to top Go down
http://cccshow.forumotion.com
 
Guitar tab Barracuda
View previous topic View next topic Back to top 
Page 1 of 1
 Similar topics
-
» about guitar pick ups
» Signature Avril Lavigne Fender Telecaster Electric Guitar
» WIRE LESS MICROPHONE
» The ultimate Car guy's House....
» Hello from under a rock

Permissions in this forum:You cannot reply to topics in this forum
CCC Show :: Music :: Barracuda-
Jump to: