CCC Show

music lyrics and cords for show
 
HomeCalendarFAQSearchRegisterLog in

Share | 
 

 guitar tab

View previous topic View next topic Go down 
AuthorMessage
Admin
Admin


Posts : 40
Join date : 2012-04-01

PostSubject: guitar tab   Thu Jun 14, 2012 8:49 pm


Instrument: Guitar
Submitter: Legato
Tab provided by tTabs

http://www.911tabs.com/link/?3656995



Song: Always On The Run
Artist: Lenny Kravitz (featuring Slash)
Tabbed by: Vince B.

Standard Tuning

Intro (2x)

e|---------------------------|-------------------------------|
B|---------------------------|-------------------------------|
G|---------------------------|-------------------------------|
D|----------------5----------|-------------------------------|
A|-----7--5-4-5-------5/7~~--|---------7--54-5-5-4-----5/7--|
E|--0-----------0---0--------|------0---------------3p0------|


Verse/Chorus - Main riff


Guitar 1
e|---------------------------|-------------------------------|
B|---------------------------|-------------------------------|
G|---------------------------|-------------------------------|
D|----------------5----------|-------------------------------|
A|-----7--5-4-5-------5/7~~--|---------7--54-5-5-4-----5/7--|
E|--0-----------0---0--------|------0---------------3p0------|

Guitar 2
e|---------------------------------------------------11/12-12-12---|
B|--x--x---x--x---x-x-x-x-x---x-x-x--x---x---x---x-x-11/12-12-12---|
G|--x--x---x--x---x-x-x-x-x---x-x-x--x---x---x---x-x-11/12-12-12---|
D|--5--7---x--x---x-5-x-x-x---x-x-5--7---x---x---x-x---------------|
A|---------5--7---------5-7--------------5---7---------------------|
E|-----------------------------------------------------------------|


Solo (Guitar 1 plays this part)

e|--------------------------------------------------|
B|-----------------------------------5-5-5-5-5-5-5--|
G|---------------5-7-7b9-5-7-5-7b9-7----------------|
D|-----------5-7------------------------------------|
A|-----4-5-7----------------------------------------|
E|--/5----------------------------------------------|


e|--------------------------------------------------------------------------|
B|--15b17~~~--17p15-----------------------------------------14-17----14-----|
G|------------------16--16b19--16-15-14--15p14p12-----14b16-------16----14--|
D|------------------------------------------------14------------------------|
A|--------------------------------------------------------------------------|
E|--------------------------------------------------------------------------|


e|----------------------------------------------------------------------|
B|--------12--------------------------14h17p14--------------------------|
G|--12----------12-14-12-----14b16~~~----------------------14b16r15b16~~|
D|-----12----14----------12--------------------12b13r12-10--------------|
A|----------------------------------------------------------------------|
E|----------------------------------------------------------------------|


e|----------------------------------------12-15~---12-------15~---------15~~--|
B|------17b19r17-16-17-16-17/19~~~---/12-------------15p12-------15p12-------|
G|----------------------------------------------------------------------------|
D|--12------------------------------------------------------------------------|
A|----------------------------------------------------------------------------|
E|----------------------------------------------------------------------------|

e|--12-------15---------------------------------------------------------------|
B|-----15p12------15p14p12--15------------------------------------------------|
G|-----------------------------16p15p14-16p15p1412--15p14p12-----------------|
D|------------------------------------------------------------14p12-----------|
A|------------------------------------------------------------------14p13p12--|
E|----------------------------------------------------------------------------|

e|---------------------|
B|---------------------|
G|-------------12-12--|
D|-------------12-12--|
A|---------------------|
E|--15p12~~~~---------|
Back to top Go down
http://cccshow.forumotion.com
 
guitar tab
View previous topic View next topic Back to top 
Page 1 of 1
 Similar topics
-
» about guitar pick ups
» Signature Avril Lavigne Fender Telecaster Electric Guitar
» Sims4 Grim’s Ghoulish Guitar for FREE
» WIRE LESS MICROPHONE
» The ultimate Car guy's House....

Permissions in this forum:You cannot reply to topics in this forum
CCC Show :: Music :: Always On The Run-
Jump to: