CCC Show

music lyrics and cords for show
 
HomeCalendarFAQSearchRegisterLog in

Share | 
 

  Bass Song:: Crazy

View previous topic View next topic Go down 
AuthorMessage
Admin
Admin


Posts : 40
Join date : 2012-04-01

PostSubject: Bass Song:: Crazy    Thu Jun 14, 2012 8:22 pm


http://www.911tabs.com/link/?3681288

Artist: Gnarls Barkley
Song:: Crazy

Tabbed by: esuvee


Intro:
G:|----------||
D:|----------||do this once
A:|-3-3-3-3--||
E:|----------||

Verse 1:
G:|------------------------------------------------------------------------------||
D:|------------------------------------------------------------------------------||do this once
A:|-3-33-3-3-3-33-3-3--6-66-6-6-6-66-6-6-----------------------------------------||
E:|---------------------------------------4-44-4-4-4-44-4-4--3-33-3-3-3-33-3-33--||

G:|-----------------------------------------------------------------------------||
D:|--------------------------------------------------------------------------5--||do this once
A:|-3-33-3-3-3-33-3-3--6-66-6-6-6-66-6-6----------------------------------------||
E:|---------------------------------------4-44-4-4-4-44-4-4--3-33-3-3-3-33-3----||

Chorus 1:there is two ways too do tis the above rythem or the rock rythem
G:|----------------------------------------------------------------------||
D:|----------------------------------------------------------------------||do this once
A:|-3333333333333333-6666666666666666------------------------------------||
E:|-----------------------------------4444444444444444-3333333333333333--||

Verse 2:
G:|---------------------------------------------------------------------------||
D:|---------------------------------------------------------------------------||do this once
A:|-3-33-3-3-3-33-3-3---------------------6-66-6-6-6-66-6-6-------------------||
E:|--------------------4-44-4-4-4-44-4-4---------------------3-33-3-3-3-33-3--||

G:|-----------------------------------------------------------------------------||
D:|--------------------------------------------------------------------------5--||do this once
A:|-3-33-3-3-3-33-3-3--6-66-6-6-6-66-6-6----------------------------------------||
E:|---------------------------------------4-44-4-4-4-44-4-4--3-33-3-3-3-33-3----||

Chorus 2:
G:|----------------------------------------------------------------------||
D:|----------------------------------------------------------------------||do this once
A:|-3333333333333333-6666666666666666------------------------------------||
E:|-----------------------------------4444444444444444-3333333333333333--||

Verse 3:
G:|-----------------------------------------------------------------------------||
D:|-----------------------------------------------------------------------------||do this one time
A:|-3-33-3-3-3-33-3-3---------------------6-66-6-6-6-66-6-6---------------------||
E:|--------------------4-44-4-4-4-44-4-4---------------------3-33-3-3-3-33-3-3--||

G:|-----------------------------------------------------------------------------||
D:|--------------------------------------------------------------------------5--||do this once
A:|-3-33-3-3-3-33-3-3--6-66-6-6-6-66-6-6----------------------------------------||
E:|---------------------------------------4-44-4-4-4-44-4-4--3-33-3-3-3-33-3----||

Chorus 3
G:|----------------------------------------------------------------------||
D:|----------------------------------------------------------------------||do this once
A:|-3333333333333333-6666666666666666------------------------------------||
E:|-----------------------------------4444444444444444-3333333333333333--||

Outr0:
G:|-----------------------------------------------------------------------------------||
D:|-----------------------------------------------------------------------------------||do this once
A:|-3-33-3-3-3-33-3-3---------------------6-66-6-6-6-66-6-6--------------------3~~~~--||
E:|--------------------4-44-4-4-4-44-4-4---------------------3-33-3-3-3-33-33---------||

plz rate enjoy
Back to top Go down
http://cccshow.forumotion.com
 
Bass Song:: Crazy
View previous topic View next topic Back to top 
Page 1 of 1
 Similar topics
-
» need help writing a song
» did you know that there is a limbo song?
» The Crazy Waiguorens CONTEST
» What's your current song?
» First Person That Comes To Your Mind When You Hear A Love SONG!

Permissions in this forum:You cannot reply to topics in this forum
CCC Show :: Music :: Crazy-
Jump to: